Bruce Bernhart Mandolin Websites


Updated!

Bernhart Mandolin Websites

Original articles, lessons, plus the "best of the web" on Mandolin lessons, purchase and set up by Mandolin player/teacher Bruce Bernhart

New!  Mandolin Tabs for Popular Fiddle Tunes:

"Draught of Ale"

Bernhart Mandolin Websites

In Minnesota, Bruce Bernhart has been a mandolin player/enthusiast since the mid-1980's

Updated May 26, 2013

__________________________________________________________________________________

Bruce Bernhart Mandolin Tabs


The Bernhart Mandolin Webpages offer beginning instruction, tabs, explore the history of the mandolin, buying and building mandolins, basic chord structures, the different styles of playing and the various makes and models of mandolins  available on the market



Look for additional Bruce Bernhart mandolin articles on Articlesbase and Ezinearticles and the Bruce Bernhart Blogs



Tabs- A Draught of Ale (Traditional Jig)

-----|-----------------|---0-2---3-------|-----------------|-----------------|
-----|---2-0-------2---|-5---------5-2---|---2-0-------2---|-0-------0-------|
--0--|-5-------5-------|-----------------|-5-------5-------|---4-0-----4-0---|
-----|-----------------|-----------------|-----------------|-----------------|
       |_|_|   |__ |     |_|_|   |_|_|     |_|_|   |__ |     |_|_|   |_|_|


     |-----------------|---0-2---3-2-3---|-0---------------|-----------------||
     |---2-0-------2---|-5---------------|---3-0---5-2-----|-3-0-------------o|
     |-5-------5-------|-----------------|-------------5---|-----4---5-------o|
     |-----------------|-----------------|-----------------|-----------------||
       |_|_|   |__ |     |_|_|   |_|_|     |_|_|   |_|_|     |_|_|   |__


-----|---0-------------|---0-2---3-------|---0-------------|-----------------|
--2--|-5---5---5-3-2---|-5---------5-2---|-5---5---5-3-2---|-0-------0-------|
-----|-----------------|-----------------|-----------------|---4-0-----4-0---|
-----|-----------------|-----------------|-----------------|-----------------|
       |_|_|   |_|_|     |_|_|   |_|_|     |_|_|   |_|_|     |_|_|   |_|_|


     |---0-------------|---0-2---3-2-3---|-0---------------|-----------------||
     |-5---5---5-3-2---|-5---------------|---3-0---5-2-----|-3-0-------------o|
     |-----------------|-----------------|-------------5---|-----4---5-------o|
     |-----------------|-----------------|-----------------|-----------------||
       |_|_|   |_|_|     |_|_|   |_|_|     |_|_|   |_|_|     |_|_|   |__

Thank you for visiting the Bruce Bernhart mandolin websites!

Bernhart Mandolin Websites


Be sure to visit the other Bruce Bernhart Mandolin Websites:

Bruce Bernhart mandolin rock tabs

Bruce Bernhart mandolin lesson on scales, meter, using a metronome

Bruce Bernhart mandolin purchase tips

Bruce Bernhart mandolin orchestras, tuning

Bruce Bernhart mandolin lessons- chord groups and intervals

Bruce Bernhart on mandolin family history

Bruce Bernhart on string and saddle adjustment

Bruce Bernhart beginning mandolin lessons one and two

Bruce Bernhart on more chord triads, blues patterns, and self-tuning

Bruce Bernhart on the mandolin family tree

Bruce Bernhart mandolin chord diagrams


Bruce Bernhart on temperature considerations

Bruce Bernhart lessson on mandolin flats and sharps


Bruce Bernhart lesson on chromatic scales, circle of 5ths and meter


Bruce Bernhart on mandolin chord theory

Bruce Bernhart mandolin C and G major chord diagrams

Bruce Bernhart on emergence of the modern mandolin

Bruce Bernhart on two finger mandolin chords

Bruce Bernhart on whole and half steps on the mandolin

Bruce Bernhart perpetual motion practice excercises

Bruce Bernhart on playing waltzes on the mandolin


Bruce Bernhart on majors, minors and sevenths


Website Builder